Entropy Music Club

True Funk Soldiers


    Place For Prince Tabs is here

    Share
    avatar
    rhcpfan

    Posts : 1
    Join date : 2012-07-02

    Place For Prince Tabs is here

    Post by rhcpfan on Mon Jul 09, 2012 5:19 pm

    I have tons of prince tabs. I would love to share them with everybody. Anybody who thinks that they would be good at tabbing songs can start taking requests. Every Song That somebody tabs will get 3 prince tabs. Here is a sample of the prince tabs i have.
    SHY (Intro)

    E----------------2--
    B----------------0---
    G----------------0---
    D--0--2---------0---
    A----------------2---
    E------------3---0---



    WHEREVER U GO, WHATEVER U DO Tab

    Wherever U Go, Whatever U Do
    0:10
    E--------------------
    B--------------------
    G--------------------
    D--------------------
    A------------5-7(H)--
    E---5-7--9----------
    0:13
    e-----------------------------
    b-----------------------------
    g------6-7--9-(hold)-6-7-6-
    d---9-------------------------
    a-----------------------------
    e-----------------------------
    0:20
    e-------------------
    b-------------------
    g-------------------
    a-------------------
    d-------------7(H)--
    e-5--7-9-------
    0:22
    e-------------------------------
    b-----------7-------10-9-------
    g--------6----9(H)--------9(H)--
    d---7-9------------------------
    a-------------------------------
    e-------------------------------
    Verses:
    A----- F#m------ B----- D------- A

    Verses 1:
    ------- A ------------ F#m
    Wherever U go, whatever U do,
    Bm-------- D ---------------------- A
    Please remember that I always be there 4 U....
    ...Verses 2: (Same chords of Verses 1)...
    Near End...
    --------- A# ---------- Gm
    Whatever U play, its okay to lose sometimes,
    Cm --------- D# ----------------- A#
    As long as you learn from every game you choose.



    Bob George Tab (The back track)

    e----------------------------------
    b----------------------------------
    g----------------------------------
    d----------------------------------
    a-3-3-3-3-3-3-3-3-3-3-3-3-3-
    e---------------------------------------
    when pitch changes it changes to this
    e---------------------------------------
    b----------------------------------------
    g----------------------------------------
    d--3--3-3-3-3-3-3-3-3-3-3-3-3-3-
    a------------------------------------------
    e--------------------------------------------
    then back to the first figure
    the pitch change once more sounding like
    e---------------------------------------
    b----------------------------------------
    g--0-0-0-0-0-0-0-0-0-0-0-0-0-0-
    d----------------------------------------
    a----------------------------------------
    e----------------------------------------



    Superfunkycalifragisexy Tab

    intro riff on the d string :

    --10--10--10-9-8-7-8--8--8-7-6-5-6--5---1


    --- 9-----
    --- 9----
    ----x----
    ----x-----
    ----x-----
    ----x----





    ENJOY and Let me know if you want in on this!
    avatar
    CKJ505

    Posts : 5499
    Join date : 2010-04-21
    Age : 45
    Location : Ireland

    Re: Place For Prince Tabs is here

    Post by CKJ505 on Wed Jul 11, 2012 3:32 am

    [You must be registered and logged in to see this image.]

    I want in on this - just a note, if you are going to post more start off with the earliest if possible. I gather you play guitar...[You must be registered and logged in to see this image.]






    [You must be registered and logged in to see this image.]
    The Funky Universe "Don’t hate me cuz I’m beautiful"
    avatar
    mrpeeps

    Posts : 37
    Join date : 2011-05-01
    Location : Calgary, Canada

    Re: Place For Prince Tabs is here

    Post by mrpeeps on Sat Apr 20, 2013 4:39 pm

    Thanks for the superfunki.... riff. It actually sounds good!
    avatar
    Dee72

    Posts : 11
    Join date : 2015-11-02

    Re: Place For Prince Tabs is here

    Post by Dee72 on Mon Nov 02, 2015 8:00 am

    trying to learn guitar.. slo process..

    would like 2c "Sticky Like Glue"..

    And "Lady Cab Driver" riff & solo..

    Sponsored content

    Re: Place For Prince Tabs is here

    Post by Sponsored content


      Current date/time is Tue Jun 27, 2017 6:24 pm